  0
SECTION
  2
HEADER
  9
$ACADVER
  1
AC1015
  9
$ACADMAINTVER
 70
     6
  9
$DWGCODEPAGE
  3
ANSI_1254
  9
$INSBASE
 10
0.0
 20
0.0
 30
0.0
  9
$EXTMIN
 10
0.0
 20
0.0
 30
0.0
  9
$EXTMAX
 10
279.4
 20
215.9
 30
0.0
  9
$LIMMIN
 10
0.0
 20
0.0
  9
$LIMMAX
 10
279.4
 20
215.9
  9
$ORTHOMODE
 70
     0
  9
$REGENMODE
 70
     1
  9
$FILLMODE
 70
     1
  9
$QTEXTMODE
 70
     0
  9
$MIRRTEXT
 70
     1
  9
$LTSCALE
 40
1.0
  9
$ATTMODE
 70
     1
  9
$TEXTSIZE
 40
3.5
  9
$TRACEWID
 40
1.0
  9
$TEXTSTYLE
  7
Standard
  9
$CLAYER
  8
0
  9
$CELTYPE
  6
ByLayer
  9
$CECOLOR
 62
   256
  9
$CELTSCALE
 40
1.0
  9
$DISPSILH
 70
     0
  9
$DIMSCALE
 40
1.0
  9
$DIMASZ
 40
3.5
  9
$DIMEXO
 40
1.0
  9
$DIMDLI
 40
3.75
  9
$DIMRND
 40
0.0
  9
$DIMDLE
 40
0.0
  9
$DIMEXE
 40
1.0
  9
$DIMTP
 40
0.0
  9
$DIMTM
 40
0.0
  9
$DIMTXT
 40
3.5
  9
$DIMCEN
 40
2.5
  9
$DIMTSZ
 40
0.0
  9
$DIMTOL
 70
     0
  9
$DIMLIM
 70
     0
  9
$DIMTIH
 70
     1
  9
$DIMTOH
 70
     1
  9
$DIMSE1
 70
     0
  9
$DIMSE2
 70
     0
  9
$DIMTAD
 70
     1
  9
$DIMZIN
 70
     0
  9
$DIMBLK
  1

  9
$DIMASO
 70
     1
  9
$DIMSHO
 70
     1
  9
$DIMPOST
  1

  9
$DIMAPOST
  1

  9
$DIMALT
 70
     0
  9
$DIMALTD
 70
     3
  9
$DIMALTF
 40
0.0393700787
  9
$DIMLFAC
 40
1.0
  9
$DIMTOFL
 70
     1
  9
$DIMTVP
 40
0.0
  9
$DIMTIX
 70
     0
  9
$DIMSOXD
 70
     0
  9
$DIMSAH
 70
     0
  9
$DIMBLK1
  1

  9
$DIMBLK2
  1

  9
$DIMSTYLE
  2
ISO-25
  9
$DIMCLRD
 70
     0
  9
$DIMCLRE
 70
     0
  9
$DIMCLRT
 70
     0
  9
$DIMTFAC
 40
1.0
  9
$DIMGAP
 40
1.524
  9
$DIMJUST
 70
     0
  9
$DIMSD1
 70
     0
  9
$DIMSD2
 70
     0
  9
$DIMTOLJ
 70
     0
  9
$DIMTZIN
 70
     0
  9
$DIMALTZ
 70
     0
  9
$DIMALTTZ
 70
     0
  9
$DIMUPT
 70
     0
  9
$DIMDEC
 70
     2
  9
$DIMTDEC
 70
     2
  9
$DIMALTU
 70
     2
  9
$DIMALTTD
 70
     3
  9
$DIMTXSTY
  7
Standard
  9
$DIMAUNIT
 70
     0
  9
$DIMADEC
 70
     2
  9
$DIMALTRND
 40
0.0
  9
$DIMAZIN
 70
     0
  9
$DIMDSEP
 70
    44
  9
$DIMATFIT
 70
     3
  9
$DIMFRAC
 70
     0
  9
$DIMLDRBLK
  1

  9
$DIMLUNIT
 70
     2
  9
$DIMLWD
 70
    -2
  9
$DIMLWE
 70
    -2
  9
$DIMTMOVE
 70
     0
  9
$LUNITS
 70
     2
  9
$LUPREC
 70
     2
  9
$SKETCHINC
 40
1.0
  9
$FILLETRAD
 40
10.0
  9
$AUNITS
 70
     0
  9
$AUPREC
 70
     2
  9
$MENU
  1
.
  9
$ELEVATION
 40
0.0
  9
$PELEVATION
 40
0.0
  9
$THICKNESS
 40
0.0
  9
$LIMCHECK
 70
     0
  9
$CHAMFERA
 40
0.0
  9
$CHAMFERB
 40
0.0
  9
$CHAMFERC
 40
0.0
  9
$CHAMFERD
 40
0.0
  9
$SKPOLY
 70
     0
  9
$TDCREATE
 40
2458985.699025822
  9
$TDUCREATE
 40
2458985.574025822
  9
$TDUPDATE
 40
2458985.699026088
  9
$TDUUPDATE
 40
2458985.574026088
  9
$TDINDWG
 40
0.0000000116
  9
$TDUSRTIMER
 40
0.0000000116
  9
$USRTIMER
 70
     1
  9
$ANGBASE
 50
0.0
  9
$ANGDIR
 70
     0
  9
$PDMODE
 70
     0
  9
$PDSIZE
 40
-1.0
  9
$PLINEWID
 40
0.0
  9
$SPLFRAME
 70
     0
  9
$SPLINETYPE
 70
     6
  9
$SPLINESEGS
 70
     8
  9
$HANDSEED
  5
EE
  9
$SURFTAB1
 70
     6
  9
$SURFTAB2
 70
     6
  9
$SURFTYPE
 70
     6
  9
$SURFU
 70
     6
  9
$SURFV
 70
     6
  9
$UCSBASE
  2

  9
$UCSNAME
  2

  9
$UCSORG
 10
0.0
 20
0.0
 30
0.0
  9
$UCSXDIR
 10
1.0
 20
0.0
 30
0.0
  9
$UCSYDIR
 10
0.0
 20
1.0
 30
0.0
  9
$UCSORTHOREF
  2

  9
$UCSORTHOVIEW
 70
     0
  9
$UCSORGTOP
 10
0.0
 20
0.0
 30
0.0
  9
$UCSORGBOTTOM
 10
0.0
 20
0.0
 30
0.0
  9
$UCSORGLEFT
 10
0.0
 20
0.0
 30
0.0
  9
$UCSORGRIGHT
 10
0.0
 20
0.0
 30
0.0
  9
$UCSORGFRONT
 10
0.0
 20
0.0
 30
0.0
  9
$UCSORGBACK
 10
0.0
 20
0.0
 30
0.0
  9
$PUCSBASE
  2

  9
$PUCSNAME
  2

  9
$PUCSORG
 10
0.0
 20
0.0
 30
0.0
  9
$PUCSXDIR
 10
1.0
 20
0.0
 30
0.0
  9
$PUCSYDIR
 10
0.0
 20
1.0
 30
0.0
  9
$PUCSORTHOREF
  2

  9
$PUCSORTHOVIEW
 70
     0
  9
$PUCSORGTOP
 10
0.0
 20
0.0
 30
0.0
  9
$PUCSORGBOTTOM
 10
0.0
 20
0.0
 30
0.0
  9
$PUCSORGLEFT
 10
0.0
 20
0.0
 30
0.0
  9
$PUCSORGRIGHT
 10
0.0
 20
0.0
 30
0.0
  9
$PUCSORGFRONT
 10
0.0
 20
0.0
 30
0.0
  9
$PUCSORGBACK
 10
0.0
 20
0.0
 30
0.0
  9
$USERI1
 70
     0
  9
$USERI2
 70
     0
  9
$USERI3
 70
     0
  9
$USERI4
 70
     0
  9
$USERI5
 70
     0
  9
$USERR1
 40
0.0
  9
$USERR2
 40
0.0
  9
$USERR3
 40
0.0
  9
$USERR4
 40
0.0
  9
$USERR5
 40
0.0
  9
$WORLDVIEW
 70
     1
  9
$SHADEDGE
 70
     3
  9
$SHADEDIF
 70
    70
  9
$TILEMODE
 70
     1
  9
$MAXACTVP
 70
    64
  9
$PINSBASE
 10
0.0
 20
0.0
 30
0.0
  9
$PLIMCHECK
 70
     0
  9
$PEXTMIN
 10
1.0000000000E+20
 20
1.0000000000E+20
 30
1.0000000000E+20
  9
$PEXTMAX
 10
-1.0000000000E+20
 20
-1.0000000000E+20
 30
-1.0000000000E+20
  9
$PLIMMIN
 10
0.0
 20
0.0
  9
$PLIMMAX
 10
420.0
 20
297.0
  9
$UNITMODE
 70
     0
  9
$VISRETAIN
 70
     1
  9
$PLINEGEN
 70
     0
  9
$PSLTSCALE
 70
     1
  9
$TREEDEPTH
 70
  3020
  9
$CMLSTYLE
  2
Standard
  9
$CMLJUST
 70
     0
  9
$CMLSCALE
 40
20.0
  9
$PROXYGRAPHICS
 70
     1
  9
$MEASUREMENT
 70
     1
  9
$CELWEIGHT
370
    -1
  9
$ENDCAPS
280
     0
  9
$JOINSTYLE
280
     0
  9
$LWDISPLAY
290
     1
  9
$INSUNITS
 70
     4
  9
$HYPERLINKBASE
  1

  9
$STYLESHEET
  1

  9
$XEDIT
290
     1
  9
$CEPSNTYPE
380
     0
  9
$PSTYLEMODE
290
     1
  9
$FINGERPRINTGUID
  2
{c8cd9cdc-650f-4432-b54c-1fa7eb07f511}
  9
$VERSIONGUID
  2
{FAEB1C32-E019-11D5-929B-00C0DF256EC4}
  9
$EXTNAMES
290
     1
  9
$PSVPSCALE
 40
0.0
  9
$OLESTARTUP
290
     0
  0
ENDSEC
  0
SECTION
  2
CLASSES
  0
CLASS
  1
ACDBDICTIONARYWDFLT
  2
AcDbDictionaryWithDefault
  3
ObjectDBX Classes
 90
        0
280
     0
281
     0
  0
CLASS
  1
VISUALSTYLE
  2
AcDbVisualStyle
  3
ObjectDBX Classes
 90
     4095
280
     0
281
     0
  0
CLASS
  1
MATERIAL
  2
AcDbMaterial
  3
ObjectDBX Classes
 90
     1153
280
     0
281
     0
  0
CLASS
  1
SCALE
  2
AcDbScale
  3
ObjectDBX Classes
 90
     1153
280
     0
281
     0
  0
CLASS
  1
TABLESTYLE
  2
AcDbTableStyle
  3
ObjectDBX Classes
 90
     4095
280
     0
281
     0
  0
CLASS
  1
MLEADERSTYLE
  2
AcDbMLeaderStyle
  3
ACDB_MLEADERSTYLE_CLASS
 90
     4095
280
     0
281
     0
  0
CLASS
  1
SUN
  2
AcDbSun
  3
SCENEOE
 90
     1153
280
     0
281
     0
  0
CLASS
  1
ACDBPLACEHOLDER
  2
AcDbPlaceHolder
  3
ObjectDBX Classes
 90
        0
280
     0
281
     0
  0
CLASS
  1
LAYOUT
  2
AcDbLayout
  3
ObjectDBX Classes
 90
        0
280
     0
281
     0
  0
ENDSEC
  0
SECTION
  2
TABLES
  0
TABLE
  2
VPORT
  5
8
330
0
100
AcDbSymbolTable
 70
     1
  0
VPORT
  5
29
330
8
100
AcDbSymbolTableRecord
100
AcDbViewportTableRecord
  2
*Active
 70
     0
 10
0.0
 20
0.0
 11
1.0
 21
1.0
 12
139.7
 22
107.95
 13
0.0
 23
0.0
 14
10.0
 24
10.0
 15
10.0
 25
10.0
 16
0.0
 26
0.0
 36
1.0
 17
0.0
 27
0.0
 37
0.0
 40
215.9
 41
1.2941176471
 42
50.0
 43
0.0
 44
0.0
 50
0.0
 51
0.0
 71
     0
 72
  2000
 73
     1
 74
     3
 75
     0
 76
     0
 77
     0
 78
     0
281
     0
 65
     1
110
0.0
120
0.0
130
0.0
111
1.0
121
0.0
131
0.0
112
0.0
122
1.0
132
0.0
 79
     0
146
0.0
  0
ENDTAB
  0
TABLE
  2
LTYPE
  5
5
330
0
100
AcDbSymbolTable
 70
     6
  0
LTYPE
  5
14
330
5
100
AcDbSymbolTableRecord
100
AcDbLinetypeTableRecord
  2
ByBlock
 70
     0
  3

 72
    65
 73
     0
 40
0.0
  0
LTYPE
  5
15
330
5
100
AcDbSymbolTableRecord
100
AcDbLinetypeTableRecord
  2
ByLayer
 70
     0
  3

 72
    65
 73
     0
 40
0.0
  0
LTYPE
  5
16
330
5
100
AcDbSymbolTableRecord
100
AcDbLinetypeTableRecord
  2
Continuous
 70
     0
  3
Solid line
 72
    65
 73
     0
 40
0.0
  0
LTYPE
  5
6E
330
5
100
AcDbSymbolTableRecord
100
AcDbLinetypeTableRecord
  2
HIDDEN
 70
     0
  3
Hidden __ __ __ __ __ __ __ __ __ __ __ __ __ __
 72
    65
 73
     2
 40
1.905
 49
1.27
 74
     0
 49
-0.635
 74
     0
  0
LTYPE
  5
6F
330
5
100
AcDbSymbolTableRecord
100
AcDbLinetypeTableRecord
  2
PHANTOM
 70
     0
  3
Phantom ______  __  __  ______  __  __  ______
 72
    65
 73
     6
 40
12.7
 49
6.35
 74
     0
 49
-1.27
 74
     0
 49
1.27
 74
     0
 49
-1.27
 74
     0
 49
1.27
 74
     0
 49
-1.27
 74
     0
  0
LTYPE
  5
70
330
5
100
AcDbSymbolTableRecord
100
AcDbLinetypeTableRecord
  2
CENTER
 70
     0
  3
Center ____ _ ____ _ ____ _ ____ _ ____ _ ____
 72
    65
 73
     4
 40
10.16
 49
6.35
 74
     0
 49
-1.27
 74
     0
 49
1.27
 74
     0
 49
-1.27
 74
     0
  0
LTYPE
  5
71
330
5
100
AcDbSymbolTableRecord
100
AcDbLinetypeTableRecord
  2
CENTERX2
 70
     0
  3
Center (2x) ________  __  ________  __  _____
 72
    65
 73
     4
 40
20.32
 49
12.7
 74
     0
 49
-2.54
 74
     0
 49
2.54
 74
     0
 49
-2.54
 74
     0
  0
LTYPE
  5
72
330
5
100
AcDbSymbolTableRecord
100
AcDbLinetypeTableRecord
  2
DOT2
 70
     0
  3
Dot (.5x) ........................................
 72
    65
 73
     2
 40
0.635
 49
0.0
 74
     0
 49
-0.635
 74
     0
  0
ENDTAB
  0
TABLE
  2
LAYER
  5
2
330
0
100
AcDbSymbolTable
 70
    17
  0
LAYER
  5
10
330
2
100
AcDbSymbolTableRecord
100
AcDbLayerTableRecord
  2
0
 70
     0
 62
     7
  6
Continuous
370
    -3
390
F
  0
LAYER
  5
73
330
2
100
AcDbSymbolTableRecord
100
AcDbLayerTableRecord
  2
FORMAT
 70
     0
 62
     7
  6
Continuous
370
    -3
390
F
  0
LAYER
  5
74
330
2
100
AcDbSymbolTableRecord
100
AcDbLayerTableRecord
  2
YARDIMCI_GEOMETRI
 70
     0
 62
    -6
  6
Continuous
290
     0
370
    -3
390
F
  0
LAYER
  5
75
330
2
100
AcDbSymbolTableRecord
100
AcDbLayerTableRecord
  2
SAYFA_CERCEVESI
 70
     0
 62
     7
  6
Continuous
370
    25
390
F
  0
LAYER
  5
76
330
2
100
AcDbSymbolTableRecord
100
AcDbLayerTableRecord
  2
ANTET
 70
     0
 62
     7
  6
Continuous
370
    -3
390
F
  0
LAYER
  5
77
330
2
100
AcDbSymbolTableRecord
100
AcDbLayerTableRecord
  2
OLCU
 70
     0
 62
   150
  6
Continuous
370
    -3
390
F
  0
LAYER
  5
78
330
2
100
AcDbSymbolTableRecord
100
AcDbLayerTableRecord
  2
METIN
 70
     0
 62
    96
  6
Continuous
370
    -3
390
F
  0
LAYER
  5
79
330
2
100
AcDbSymbolTableRecord
100
AcDbLayerTableRecord
  2
BALON
 70
     0
 62
     5
  6
Continuous
370
    -3
390
F
  0
LAYER
  5
7A
330
2
100
AcDbSymbolTableRecord
100
AcDbLayerTableRecord
  2
VURGU
 70
     0
 62
     7
  6
Continuous
370
    -3
390
F
  0
LAYER
  5
7B
330
2
100
AcDbSymbolTableRecord
100
AcDbLayerTableRecord
  2
SILIK
 70
     0
 62
     7
  6
Continuous
370
    -3
390
F
  0
LAYER
  5
7C
330
2
100
AcDbSymbolTableRecord
100
AcDbLayerTableRecord
  2
MODEL
 70
     0
 62
     7
  6
Continuous
370
    -3
390
F
  0
LAYER
  5
7D
330
2
100
AcDbSymbolTableRecord
100
AcDbLayerTableRecord
  2
DETAYLANDıRMA
 70
     0
 62
   190
  6
Continuous
370
    -3
390
F
  0
LAYER
  5
7E
330
2
100
AcDbSymbolTableRecord
100
AcDbLayerTableRecord
  2
TOLERANS
 70
     0
 62
   230
  6
Continuous
370
    -3
390
F
  0
LAYER
  5
7F
330
2
100
AcDbSymbolTableRecord
100
AcDbLayerTableRecord
  2
MERKEZ_CIZGILERI
 70
     0
 62
    30
  6
Continuous
370
    -3
390
F
  0
LAYER
  5
80
330
2
100
AcDbSymbolTableRecord
100
AcDbLayerTableRecord
  2
KESIT-DETAY_CIZGILERI
 70
     0
 62
     7
  6
Continuous
370
    -3
390
F
  0
LAYER
  5
81
330
2
100
AcDbSymbolTableRecord
100
AcDbLayerTableRecord
  2
\U+041E\U+0421\U+0415\U+0412\U+042B\U+0415
 70
     0
 62
     7
  6
Continuous
370
    -3
390
F
  0
LAYER
  5
82
330
2
100
AcDbSymbolTableRecord
100
AcDbLayerTableRecord
  2
\U+0412\U+041E\U+0414\U+042F\U+041D\U+042B\U+0415_\U+0417\U+041D\U+0410\U+041A\U+0418
 70
     0
 62
    11
  6
Continuous
370
    -3
390
F
  0
ENDTAB
  0
TABLE
  2
STYLE
  5
3
330
0
100
AcDbSymbolTable
 70
     1
  0
STYLE
  5
11
330
3
100
AcDbSymbolTableRecord
100
AcDbTextStyleTableRecord
  2
Standard
 70
     0
 40
0.0
 41
1.0
 50
0.0
 71
     0
 42
3.5
  3
txt
  4

  0
ENDTAB
  0
TABLE
  2
VIEW
  5
6
330
0
100
AcDbSymbolTable
 70
     0
  0
ENDTAB
  0
TABLE
  2
UCS
  5
7
330
0
100
AcDbSymbolTable
 70
     0
  0
ENDTAB
  0
TABLE
  2
APPID
  5
9
330
0
100
AcDbSymbolTable
 70
     1
  0
APPID
  5
12
330
9
100
AcDbSymbolTableRecord
100
AcDbRegAppTableRecord
  2
ACAD
 70
     0
  0
ENDTAB
  0
TABLE
  2
DIMSTYLE
  5
A
330
0
100
AcDbSymbolTable
 70
     1
100
AcDbDimStyleTable
  0
DIMSTYLE
105
27
330
A
100
AcDbSymbolTableRecord
100
AcDbDimStyleTableRecord
  2
ISO-25
 70
     0
 41
2.5
 42
0.625
 43
3.75
 44
1.25
 73
     0
 74
     0
 77
     1
 78
     8
140
2.5
141
2.5
143
0.0393700787
147
0.625
171
     3
172
     1
178
     0
271
     2
272
     2
274
     3
278
    44
283
     0
284
     8
340
11
  0
ENDTAB
  0
TABLE
  2
BLOCK_RECORD
  5
1
330
0
100
AcDbSymbolTable
 70
     2
  0
BLOCK_RECORD
  5
1F
330
1
100
AcDbSymbolTableRecord
100
AcDbBlockTableRecord
  2
*Model_Space
340
22
  0
BLOCK_RECORD
  5
1B
330
1
100
AcDbSymbolTableRecord
100
AcDbBlockTableRecord
  2
*Paper_Space
340
1E
  0
BLOCK_RECORD
  5
23
330
1
100
AcDbSymbolTableRecord
100
AcDbBlockTableRecord
  2
*Paper_Space0
340
26
  0
BLOCK_RECORD
  5
88
330
1
100
AcDbSymbolTableRecord
100
AcDbBlockTableRecord
  2
SW_CENTERMARKSYMBOL_0
340
0
102
{BLKREFS
331
93
102
}
  0
ENDTAB
  0
ENDSEC
  0
SECTION
  2
BLOCKS
  0
BLOCK
  5
20
330
1F
100
AcDbEntity
  8
0
100
AcDbBlockBegin
  2
*Model_Space
 70
     0
 10
0.0
 20
0.0
 30
0.0
  3
*Model_Space
  1

  0
ENDBLK
  5
21
330
1F
100
AcDbEntity
  8
0
100
AcDbBlockEnd
  0
BLOCK
  5
1C
330
1B
100
AcDbEntity
 67
     1
  8
0
100
AcDbBlockBegin
  2
*Paper_Space
 70
     0
 10
0.0
 20
0.0
 30
0.0
  3
*Paper_Space
  1

  0
ENDBLK
  5
1D
330
1B
100
AcDbEntity
 67
     1
  8
0
100
AcDbBlockEnd
  0
BLOCK
  5
24
330
23
100
AcDbEntity
  8
0
100
AcDbBlockBegin
  2
*Paper_Space0
 70
     0
 10
0.0
 20
0.0
 30
0.0
  3
*Paper_Space0
  1

  0
ENDBLK
  5
25
330
23
100
AcDbEntity
  8
0
100
AcDbBlockEnd
  0
BLOCK
  5
89
330
88
100
AcDbEntity
  8
0
100
AcDbBlockBegin
  2
SW_CENTERMARKSYMBOL_0
 70
     0
 10
0.0
 20
0.0
 30
0.0
  3
SW_CENTERMARKSYMBOL_0
  1

  0
LINE
  5
8B
330
88
100
AcDbEntity
  8
FORMAT
 62
     0
100
AcDbLine
 10
0.0
 20
0.0
 30
0.0
 11
0.0
 21
2.5
 31
0.0
  0
LINE
  5
8C
330
88
100
AcDbEntity
  8
FORMAT
 62
     0
100
AcDbLine
 10
0.0
 20
0.0
 30
0.0
 11
-2.5
 21
0.0
 31
0.0
  0
LINE
  5
8D
330
88
100
AcDbEntity
  8
FORMAT
 62
     0
100
AcDbLine
 10
0.0
 20
0.0
 30
0.0
 11
0.0
 21
-2.5
 31
0.0
  0
LINE
  5
8E
330
88
100
AcDbEntity
  8
FORMAT
 62
     0
100
AcDbLine
 10
0.0
 20
0.0
 30
0.0
 11
2.5
 21
0.0
 31
0.0
  0
LINE
  5
8F
330
88
100
AcDbEntity
  8
FORMAT
 62
     0
100
AcDbLine
 10
0.0
 20
5.0
 30
0.0
 11
0.0
 21
65.0
 31
0.0
  0
LINE
  5
90
330
88
100
AcDbEntity
  8
FORMAT
 62
     0
100
AcDbLine
 10
-5.0
 20
0.0
 30
0.0
 11
-65.0
 21
0.0
 31
0.0
  0
LINE
  5
91
330
88
100
AcDbEntity
  8
FORMAT
 62
     0
100
AcDbLine
 10
0.0
 20
-5.0
 30
0.0
 11
0.0
 21
-65.0
 31
0.0
  0
LINE
  5
92
330
88
100
AcDbEntity
  8
FORMAT
 62
     0
100
AcDbLine
 10
5.0
 20
0.0
 30
0.0
 11
65.0
 21
0.0
 31
0.0
  0
ENDBLK
  5
8A
330
88
100
AcDbEntity
  8
0
100
AcDbBlockEnd
  0
ENDSEC
  0
SECTION
  2
ENTITIES
  0
CIRCLE
  5
83
330
1F
100
AcDbEntity
  8
0
  6
Continuous
 62
     7
370
    25
100
AcDbCircle
 10
139.395004093
 20
107.5851680021
 30
0.0
 40
62.5
  0
CIRCLE
  5
84
330
1F
100
AcDbEntity
  8
0
  6
Continuous
 62
     7
370
    25
100
AcDbCircle
 10
139.395004093
 20
107.5851680021
 30
0.0
 40
51.10000000000001
  0
CIRCLE
  5
85
330
1F
100
AcDbEntity
  8
0
  6
Continuous
 62
     7
370
    25
100
AcDbCircle
 10
139.395004093
 20
107.5851680021
 30
0.0
 40
50.87239989017515
  0
CIRCLE
  5
86
330
1F
100
AcDbEntity
  8
0
  6
Continuous
 62
     7
370
    25
100
AcDbCircle
 10
139.395004093
 20
107.5851680021
 30
0.0
 40
37.02760010982487
  0
CIRCLE
  5
87
330
1F
100
AcDbEntity
  8
0
  6
Continuous
 62
     7
370
    25
100
AcDbCircle
 10
139.395004093
 20
107.5851680021
 30
0.0
 40
36.80000000000001
  0
INSERT
  5
93
330
1F
100
AcDbEntity
  8
FORMAT
 62
     7
100
AcDbBlockReference
  2
SW_CENTERMARKSYMBOL_0
 10
139.395004093
 20
107.5851680021
 30
0.0
  0
ARC
  5
94
330
1F
100
AcDbEntity
  8
0
  6
Continuous
 62
     7
370
    25
100
AcDbCircle
 10
-124.5172191336
 20
168.0851680021
 30
0.0
 40
2.000000000000018
100
AcDbArc
 50
72.6459753637
 51
90.0
  0
ARC
  5
95
330
1F
100
AcDbEntity
  8
0
  6
Continuous
 62
     7
370
    25
100
AcDbCircle
 10
-124.5172191336
 20
47.0851680021
 30
0.0
 40
2.000000000000011
100
AcDbArc
 50
270.0
 51
287.3540246363
  0
LINE
  5
96
330
1F
100
AcDbEntity
  8
0
  6
Continuous
 62
     7
370
    25
100
AcDbLine
 10
-124.5172187662
 20
170.0851680021
 30
0.0
 11
-211.2119976407
 21
170.0851680021
 31
0.0
  0
LINE
  5
97
330
1F
100
AcDbEntity
  8
0
  6
Continuous
 62
     7
370
    25
100
AcDbLine
 10
-211.2119976407
 20
45.0851680021
 30
0.0
 11
-124.5172187662
 21
45.0851680021
 31
0.0
  0
LINE
  5
98
330
1F
100
AcDbEntity
  8
0
  6
Continuous
 62
     7
370
    25
100
AcDbLine
 10
-123.9206694043
 20
45.1762066464
 30
0.0
 11
-68.5033235675
 21
62.4941275697
 31
0.0
  0
LINE
  5
99
330
1F
100
AcDbEntity
  8
0
  6
Continuous
 62
     7
370
    25
100
AcDbLine
 10
-68.5033235675
 20
152.6762084346
 30
0.0
 11
-123.9206694043
 21
169.9941293578
 31
0.0
  0
ARC
  5
9A
330
1F
100
AcDbEntity
  8
0
  6
Continuous
 62
     7
370
    25
100
AcDbCircle
 10
-67.9067754422
 20
154.5851680021
 30
0.0
 40
2.000000000000018
100
AcDbArc
 50
252.6459753637
 51
270.0
  0
ARC
  5
9B
330
1F
100
AcDbEntity
  8
0
  6
Continuous
 62
     7
370
    25
100
AcDbCircle
 10
-67.9067754422
 20
60.5851680021
 30
0.0
 40
2.000000000000007
100
AcDbArc
 50
90.0
 51
107.3540246363
  0
LINE
  5
9C
330
1F
100
AcDbEntity
  8
0
  6
Continuous
 62
     7
370
    25
100
AcDbLine
 10
10.7880052203
 20
152.5851697903
 30
0.0
 11
-67.9067742056
 21
152.5851697903
 31
0.0
  0
LINE
  5
9D
330
1F
100
AcDbEntity
  8
0
  6
Continuous
 62
     7
370
    25
100
AcDbLine
 10
-67.9067742056
 20
62.585166214
 30
0.0
 11
10.7880052203
 21
62.585166214
 31
0.0
  0
LINE
  5
9E
330
1F
100
AcDbEntity
  8
0
  6
Continuous
 62
     7
370
    25
100
AcDbLine
 10
-211.2119976407
 20
170.0851680021
 30
0.0
 11
-211.2119976407
 21
45.0851680021
 31
0.0
  0
LINE
  5
9F
330
1F
100
AcDbEntity
  8
0
  6
Continuous
 62
     7
370
    25
100
AcDbLine
 10
10.7880052203
 20
152.5851697903
 30
0.0
 11
10.7880052203
 21
62.585166214
 31
0.0
  0
LINE
  5
A0
330
1F
100
AcDbEntity
  8
0
  6
Continuous
 62
     1
370
    25
100
AcDbLine
 10
-123.9206694043
 20
169.9941293578
 30
0.0
 11
-123.9206694043
 21
45.1762066464
 31
0.0
  0
LINE
  5
A1
330
1F
100
AcDbEntity
  8
0
  6
Continuous
 62
     1
370
    25
100
AcDbLine
 10
-124.5172187662
 20
170.0851680021
 30
0.0
 11
-124.5172187662
 21
45.0851680021
 31
0.0
  0
LINE
  5
A2
330
1F
100
AcDbEntity
  8
0
  6
Continuous
 62
     1
370
    25
100
AcDbLine
 10
-68.5033235675
 20
152.6762084346
 30
0.0
 11
-68.5033235675
 21
62.4941275697
 31
0.0
  0
LINE
  5
A3
330
1F
100
AcDbEntity
  8
0
  6
Continuous
 62
     1
370
    25
100
AcDbLine
 10
-67.9067742056
 20
152.5851697903
 30
0.0
 11
-67.9067742056
 21
62.585166214
 31
0.0
  0
ARC
  5
A4
330
1F
100
AcDbEntity
  8
0
  6
Continuous
 62
     7
370
    25
100
AcDbCircle
 10
392.3209937191
 20
47.0851680021
 30
0.0
 40
2.000000000000011
100
AcDbArc
 50
252.6459753637
 51
270.0
  0
ARC
  5
A5
330
1F
100
AcDbEntity
  8
0
  6
Continuous
 62
     7
370
    25
100
AcDbCircle
 10
392.3209937191
 20
168.0851680021
 30
0.0
 40
2.000000000000018
100
AcDbArc
 50
90.0
 51
107.3540246363
  0
LINE
  5
A6
330
1F
100
AcDbEntity
  8
0
  6
Continuous
 62
     7
370
    25
100
AcDbLine
 10
392.3209933518
 20
45.0851680021
 30
0.0
 11
479.0157722263
 21
45.0851680021
 31
0.0
  0
LINE
  5
A7
330
1F
100
AcDbEntity
  8
0
  6
Continuous
 62
     7
370
    25
100
AcDbLine
 10
479.0157722263
 20
170.0851680021
 30
0.0
 11
392.3209933518
 21
170.0851680021
 31
0.0
  0
LINE
  5
A8
330
1F
100
AcDbEntity
  8
0
  6
Continuous
 62
     7
370
    25
100
AcDbLine
 10
391.7244439898
 20
169.9941293578
 30
0.0
 11
336.3070981531
 21
152.6762084346
 31
0.0
  0
LINE
  5
A9
330
1F
100
AcDbEntity
  8
0
  6
Continuous
 62
     7
370
    25
100
AcDbLine
 10
336.3070981531
 20
62.4941275697
 30
0.0
 11
391.7244439898
 21
45.1762066464
 31
0.0
  0
ARC
  5
AA
330
1F
100
AcDbEntity
  8
0
  6
Continuous
 62
     7
370
    25
100
AcDbCircle
 10
335.7105500278
 20
60.5851680021
 30
0.0
 40
2.000000000000007
100
AcDbArc
 50
72.6459753637
 51
90.0
  0
ARC
  5
AB
330
1F
100
AcDbEntity
  8
0
  6
Continuous
 62
     7
370
    25
100
AcDbCircle
 10
335.7105500278
 20
154.5851680021
 30
0.0
 40
2.000000000000018
100
AcDbArc
 50
270.0
 51
287.3540246363
  0
LINE
  5
AC
330
1F
100
AcDbEntity
  8
0
  6
Continuous
 62
     7
370
    25
100
AcDbLine
 10
257.0157693653
 20
62.585166214
 30
0.0
 11
335.7105487911
 21
62.585166214
 31
0.0
  0
LINE
  5
AD
330
1F
100
AcDbEntity
  8
0
  6
Continuous
 62
     7
370
    25
100
AcDbLine
 10
335.7105487911
 20
152.5851697903
 30
0.0
 11
257.0157693653
 21
152.5851697903
 31
0.0
  0
LINE
  5
AE
330
1F
100
AcDbEntity
  8
0
  6
Continuous
 62
     7
370
    25
100
AcDbLine
 10
479.0157722263
 20
107.5851680021
 30
0.0
 11
479.0157722263
 21
170.0851680021
 31
0.0
  0
LINE
  5
AF
330
1F
100
AcDbEntity
  8
0
  6
Continuous
 62
     7
370
    25
100
AcDbLine
 10
479.0157722263
 20
45.0851680021
 30
0.0
 11
479.0157722263
 21
107.5851680021
 31
0.0
  0
LINE
  5
B0
330
1F
100
AcDbEntity
  8
0
  6
Continuous
 62
     7
370
    25
100
AcDbLine
 10
257.0157693653
 20
107.5851680021
 30
0.0
 11
257.0157693653
 21
152.5851697903
 31
0.0
  0
LINE
  5
B1
330
1F
100
AcDbEntity
  8
0
  6
Continuous
 62
     7
370
    25
100
AcDbLine
 10
257.0157693653
 20
62.585166214
 30
0.0
 11
257.0157693653
 21
107.5851680021
 31
0.0
  0
LINE
  5
B2
330
1F
100
AcDbEntity
  8
0
  6
Continuous
 62
     1
370
    25
100
AcDbLine
 10
391.7244439898
 20
107.5851680021
 30
0.0
 11
391.7244439898
 21
169.9941293578
 31
0.0
  0
LINE
  5
B3
330
1F
100
AcDbEntity
  8
0
  6
Continuous
 62
     1
370
    25
100
AcDbLine
 10
391.7244439898
 20
45.1762066464
 30
0.0
 11
391.7244439898
 21
107.5851680021
 31
0.0
  0
LINE
  5
B4
330
1F
100
AcDbEntity
  8
0
  6
Continuous
 62
     1
370
    25
100
AcDbLine
 10
392.3209933518
 20
107.5851680021
 30
0.0
 11
392.3209933518
 21
170.0851680021
 31
0.0
  0
LINE
  5
B5
330
1F
100
AcDbEntity
  8
0
  6
Continuous
 62
     1
370
    25
100
AcDbLine
 10
392.3209933518
 20
45.0851680021
 30
0.0
 11
392.3209933518
 21
107.5851680021
 31
0.0
  0
LINE
  5
B6
330
1F
100
AcDbEntity
  8
0
  6
Continuous
 62
     1
370
    25
100
AcDbLine
 10
336.3070981531
 20
107.5851680021
 30
0.0
 11
336.3070981531
 21
152.6762084346
 31
0.0
  0
LINE
  5
B7
330
1F
100
AcDbEntity
  8
0
  6
Continuous
 62
     1
370
    25
100
AcDbLine
 10
336.3070981531
 20
62.4941275697
 30
0.0
 11
336.3070981531
 21
107.5851680021
 31
0.0
  0
LINE
  5
B8
330
1F
100
AcDbEntity
  8
0
  6
Continuous
 62
     1
370
    25
100
AcDbLine
 10
335.7105487911
 20
107.5851680021
 30
0.0
 11
335.7105487911
 21
152.5851697903
 31
0.0
  0
LINE
  5
B9
330
1F
100
AcDbEntity
  8
0
  6
Continuous
 62
     1
370
    25
100
AcDbLine
 10
335.7105487911
 20
62.585166214
 30
0.0
 11
335.7105487911
 21
107.5851680021
 31
0.0
  0
ARC
  5
BA
330
1F
100
AcDbEntity
  8
0
  6
Continuous
 62
     7
370
    25
100
AcDbCircle
 10
199.895004093
 20
343.0080113634
 30
0.0
 40
2.000000000000008
100
AcDbArc
 50
342.6459753637
 51
0.0
  0
ARC
  5
BB
330
1F
100
AcDbEntity
  8
0
  6
Continuous
 62
     7
370
    25
100
AcDbCircle
 10
78.895004093
 20
343.0080113634
 30
0.0
 40
2.000000000000021
100
AcDbArc
 50
180.0
 51
197.3540246363
  0
LINE
  5
BC
330
1F
100
AcDbEntity
  8
0
  6
Continuous
 62
     7
370
    25
100
AcDbLine
 10
201.895004093
 20
343.008010996
 30
0.0
 11
201.895004093
 21
429.7027898706
 31
0.0
  0
LINE
  5
BD
330
1F
100
AcDbEntity
  8
0
  6
Continuous
 62
     7
370
    25
100
AcDbLine
 10
76.895004093
 20
429.7027898706
 30
0.0
 11
76.895004093
 21
343.008010996
 31
0.0
  0
LINE
  5
BE
330
1F
100
AcDbEntity
  8
0
  6
Continuous
 62
     7
370
    25
100
AcDbLine
 10
76.9860427374
 20
342.4114616341
 30
0.0
 11
94.3039636606
 21
286.9941157973
 31
0.0
  0
LINE
  5
BF
330
1F
100
AcDbEntity
  8
0
  6
Continuous
 62
     7
370
    25
100
AcDbLine
 10
184.4860445255
 20
286.9941157973
 30
0.0
 11
201.8039654487
 21
342.4114616341
 31
0.0
  0
ARC
  5
C0
330
1F
100
AcDbEntity
  8
0
  6
Continuous
 62
     7
370
    25
100
AcDbCircle
 10
186.395004093
 20
286.397567672
 30
0.0
 40
2.0
100
AcDbArc
 50
162.6459753637
 51
180.0
  0
ARC
  5
C1
330
1F
100
AcDbEntity
  8
0
  6
Continuous
 62
     7
370
    25
100
AcDbCircle
 10
92.395004093
 20
286.397567672
 30
0.0
 40
2.0
100
AcDbArc
 50
0.0
 51
17.3540246363
  0
LINE
  5
C2
330
1F
100
AcDbEntity
  8
0
  6
Continuous
 62
     7
370
    25
100
AcDbLine
 10
184.3950058812
 20
207.7027870095
 30
0.0
 11
184.3950058812
 21
286.3975664354
 31
0.0
  0
LINE
  5
C3
330
1F
100
AcDbEntity
  8
0
  6
Continuous
 62
     7
370
    25
100
AcDbLine
 10
94.3950023049
 20
286.3975664354
 30
0.0
 11
94.3950023049
 21
207.7027870095
 31
0.0
  0
LINE
  5
C4
330
1F
100
AcDbEntity
  8
0
  6
Continuous
 62
     7
370
    25
100
AcDbLine
 10
201.895004093
 20
429.7027898706
 30
0.0
 11
76.895004093
 21
429.7027898706
 31
0.0
  0
LINE
  5
C5
330
1F
100
AcDbEntity
  8
0
  6
Continuous
 62
     7
370
    25
100
AcDbLine
 10
184.3950058812
 20
207.7027870095
 30
0.0
 11
94.3950023049
 21
207.7027870095
 31
0.0
  0
LINE
  5
C6
330
1F
100
AcDbEntity
  8
0
  6
Continuous
 62
     1
370
    25
100
AcDbLine
 10
201.8039654487
 20
342.4114616341
 30
0.0
 11
76.9860427374
 21
342.4114616341
 31
0.0
  0
LINE
  5
C7
330
1F
100
AcDbEntity
  8
0
  6
Continuous
 62
     1
370
    25
100
AcDbLine
 10
201.895004093
 20
343.008010996
 30
0.0
 11
76.895004093
 21
343.008010996
 31
0.0
  0
LINE
  5
C8
330
1F
100
AcDbEntity
  8
0
  6
Continuous
 62
     1
370
    25
100
AcDbLine
 10
184.4860445255
 20
286.9941157973
 30
0.0
 11
94.3039636606
 21
286.9941157973
 31
0.0
  0
LINE
  5
C9
330
1F
100
AcDbEntity
  8
0
  6
Continuous
 62
     1
370
    25
100
AcDbLine
 10
184.3950058812
 20
286.3975664354
 30
0.0
 11
94.3950023049
 21
286.3975664354
 31
0.0
  0
ARC
  5
CA
330
1F
100
AcDbEntity
  8
0
  6
Continuous
 62
     7
370
    25
100
AcDbCircle
 10
78.895004093
 20
-127.0903633834
 30
0.0
 40
2.000000000000008
100
AcDbArc
 50
162.6459753637
 51
180.0
  0
ARC
  5
CB
330
1F
100
AcDbEntity
  8
0
  6
Continuous
 62
     7
370
    25
100
AcDbCircle
 10
199.895004093
 20
-127.0903633834
 30
0.0
 40
2.0
100
AcDbArc
 50
0.0
 51
17.3540246363
  0
LINE
  5
CC
330
1F
100
AcDbEntity
  8
0
  6
Continuous
 62
     7
370
    25
100
AcDbLine
 10
76.895004093
 20
-127.0903630161
 30
0.0
 11
76.895004093
 21
-213.7851418906
 31
0.0
  0
LINE
  5
CD
330
1F
100
AcDbEntity
  8
0
  6
Continuous
 62
     7
370
    25
100
AcDbLine
 10
201.895004093
 20
-213.7851418906
 30
0.0
 11
201.895004093
 21
-127.0903630161
 31
0.0
  0
LINE
  5
CE
330
1F
100
AcDbEntity
  8
0
  6
Continuous
 62
     7
370
    25
100
AcDbLine
 10
201.8039654487
 20
-126.4938136541
 30
0.0
 11
184.4860445255
 21
-71.0764678174
 31
0.0
  0
LINE
  5
CF
330
1F
100
AcDbEntity
  8
0
  6
Continuous
 62
     7
370
    25
100
AcDbLine
 10
94.3039636606
 20
-71.0764678174
 30
0.0
 11
76.9860427374
 21
-126.4938136541
 31
0.0
  0
ARC
  5
D0
330
1F
100
AcDbEntity
  8
0
  6
Continuous
 62
     7
370
    25
100
AcDbCircle
 10
92.395004093
 20
-70.479919692
 30
0.0
 40
2.0
100
AcDbArc
 50
342.6459753637
 51
0.0
  0
ARC
  5
D1
330
1F
100
AcDbEntity
  8
0
  6
Continuous
 62
     7
370
    25
100
AcDbCircle
 10
186.395004093
 20
-70.479919692
 30
0.0
 40
2.0
100
AcDbArc
 50
180.0
 51
197.3540246363
  0
LINE
  5
D2
330
1F
100
AcDbEntity
  8
0
  6
Continuous
 62
     7
370
    25
100
AcDbLine
 10
94.3950023049
 20
8.2148609704
 30
0.0
 11
94.3950023049
 21
-70.4799184554
 31
0.0
  0
LINE
  5
D3
330
1F
100
AcDbEntity
  8
0
  6
Continuous
 62
     7
370
    25
100
AcDbLine
 10
184.3950058812
 20
-70.4799184554
 30
0.0
 11
184.3950058812
 21
8.2148609704
 31
0.0
  0
LINE
  5
D4
330
1F
100
AcDbEntity
  8
0
  6
Continuous
 62
     7
370
    25
100
AcDbLine
 10
76.895004093
 20
-213.7851418906
 30
0.0
 11
201.895004093
 21
-213.7851418906
 31
0.0
  0
LINE
  5
D5
330
1F
100
AcDbEntity
  8
0
  6
Continuous
 62
     7
370
    25
100
AcDbLine
 10
94.3950023049
 20
8.2148609704
 30
0.0
 11
184.3950058812
 21
8.2148609704
 31
0.0
  0
LINE
  5
D6
330
1F
100
AcDbEntity
  8
0
  6
Continuous
 62
     1
370
    25
100
AcDbLine
 10
76.9860427374
 20
-126.4938136541
 30
0.0
 11
201.8039654487
 21
-126.4938136541
 31
0.0
  0
LINE
  5
D7
330
1F
100
AcDbEntity
  8
0
  6
Continuous
 62
     1
370
    25
100
AcDbLine
 10
76.895004093
 20
-127.0903630161
 30
0.0
 11
201.895004093
 21
-127.0903630161
 31
0.0
  0
LINE
  5
D8
330
1F
100
AcDbEntity
  8
0
  6
Continuous
 62
     1
370
    25
100
AcDbLine
 10
94.3039636606
 20
-71.0764678174
 30
0.0
 11
184.4860445255
 21
-71.0764678174
 31
0.0
  0
LINE
  5
D9
330
1F
100
AcDbEntity
  8
0
  6
Continuous
 62
     1
370
    25
100
AcDbLine
 10
94.3950023049
 20
-70.4799184554
 30
0.0
 11
184.3950058812
 21
-70.4799184554
 31
0.0
  0
LINE
  5
DA
330
1F
100
AcDbEntity
  8
0
  6
Continuous
 62
     7
370
    25
100
AcDbLine
 10
386.5417293832
 20
-25.6111466926
 30
0.0
 11
325.2392633475
 21
9.7780136703
 31
0.0
  0
LINE
  5
DB
330
1F
100
AcDbEntity
  8
0
  6
Continuous
 62
     7
370
    25
100
AcDbLine
 10
262.7443431124
 20
-98.4780924538
 30
0.0
 11
324.046809148
 21
-133.8672528167
 31
0.0
  0
SPLINE
  5
DC
330
1F
100
AcDbEntity
  8
0
  6
Continuous
 62
     7
370
    25
100
AcDbSpline
210
0.0
220
0.0
230
1.0
 70
     8
 71
     3
 72
    10
 73
     6
 74
     0
 42
0.000000001
 43
0.00000001
 40
0.0
 40
0.0
 40
0.0
 40
0.0
 40
0.3118557738358498
 40
0.8639454929840042
 40
1.0
 40
1.0
 40
1.0
 40
1.0
 10
391.4065254212561
 20
-29.42844870583128
 30
0.0
 10
391.142051614056
 20
-29.15490088889147
 30
0.0
 10
390.4093701217997
 20
-28.3970813345062
 30
0.0
 10
389.4946648695761
 20
-27.60570222324692
 30
0.0
 10
388.818880231768
 20
-27.13325171414187
 30
0.0
 10
388.6852693661237
 20
-27.03984248587
 30
0.0
  0
SPLINE
  5
DD
330
1F
100
AcDbEntity
  8
0
  6
Continuous
 62
     7
370
    25
100
AcDbSpline
210
0.0
220
0.0
230
1.0
 70
     8
 71
     3
 72
    10
 73
     6
 74
     0
 42
0.000000001
 43
0.00000001
 40
0.0
 40
0.0
 40
0.0
 40
0.0
 40
0.204560906302946
 40
0.850207795529942
 40
1.0
 40
1.0
 40
1.0
 40
1.0
 10
326.3691413307506
 20
-135.011959755278
 30
0.0
 10
326.5585258504693
 20
-135.0989976325366
 30
0.0
 10
327.3456566758441
 20
-135.4607494603374
 30
0.0
 10
328.3155235444674
 20
-135.8019042045997
 30
0.0
 10
329.1162762425039
 20
-136.0012951277293
 30
0.0
 10
329.2670690723065
 20
-136.0388432016969
 30
0.0
  0
LINE
  5
DE
330
1F
100
AcDbEntity
  8
0
  6
Continuous
 62
     7
370
    25
100
AcDbLine
 10
332.1819780425
 20
-136.6768344492
 30
0.0
 11
377.8984617906
 21
-143.566316954
 31
0.0
  0
LINE
  5
DF
330
1F
100
AcDbEntity
  8
0
  6
Continuous
 62
     7
370
    25
100
AcDbLine
 10
421.8711130961
 20
-67.3951984296
 30
0.0
 11
393.0430124749
 21
-31.251008768
 31
0.0
  0
LINE
  5
E0
330
1F
100
AcDbEntity
  8
0
  6
Continuous
 62
     7
370
    25
100
AcDbLine
 10
473.467682804
 20
-95.9991417939
 30
0.0
 11
420.1236915859
 21
-65.2043111502
 31
0.0
  0
LINE
  5
E1
330
1F
100
AcDbEntity
  8
0
  6
Continuous
 62
     7
370
    25
100
AcDbLine
 10
375.1273473308
 20
-143.1487095062
 30
0.0
 11
428.4713385488
 21
-173.9435401499
 31
0.0
  0
LWPOLYLINE
  5
E2
330
1F
100
AcDbEntity
  8
0
  6
Continuous
 62
     7
370
    25
100
AcDbPolyline
 90
      113
 70
   128
 43
0.0
 10
249.7976294058
 20
-69.8627928862
 10
249.8671559008
 20
-66.9611680769
 10
250.0755141147
 20
-63.9884005423
 10
250.4220481374
 20
-60.9538446749
 10
250.9056700532
 20
-57.8670457029
 10
251.5248573072
 20
-54.7377176363
 10
252.2776579735
 20
-51.575707526
 10
253.1617118286
 20
-48.3909597238
 10
254.174229278
 20
-45.1934999106
 10
255.3120282346
 20
-41.9933841491
 10
256.5715262162
 20
-38.8006867156
 10
257.9487640534
 20
-35.6254483906
 10
259.439405889
 20
-32.4776597286
 10
261.0387628861
 20
-29.3672276003
 10
262.7418037648
 20
-26.3039341283
 10
264.5431679727
 20
-23.2974199579
 10
266.4371867587
 20
-20.3571477576
 10
268.4179042462
 20
-17.4923657182
 10
270.4790853359
 20
-14.7120877817
 10
272.6142459986
 20
-12.0250639862
 10
274.8166703973
 20
-9.4397432046
 10
277.0794253754
 20
-6.9642647814
 10
279.395393384
 20
-4.6064121466
 10
281.7572869695
 20
-2.3736135786
 10
284.1576744571
 20
-0.2728847907
 10
286.589004317
 20
1.6891607994
 10
289.043625579
 20
3.5063481907
 10
291.5138161503
 20
5.1729632291
 10
293.99180323
 20
6.6837613511
 10
296.4697903097
 20
8.0339862127
 10
298.9399808809
 20
9.219392501
 10
301.394602143
 20
10.2362504944
 10
303.8259320028
 20
11.0813586085
 10
306.2263194904
 20
11.7520582224
 10
308.5882130759
 20
12.2462439427
 10
310.9041810845
 20
12.5623510538
 10
313.1669360627
 20
12.6993939192
 10
315.3693604613
 20
12.656938222
 10
317.504521124
 20
12.4351184542
 10
319.5657022137
 20
12.0346295487
 10
321.5464197013
 20
11.4567352426
 10
323.4404384872
 20
10.7032505855
 10
325.2418026951
 20
9.7765472596
 10
326.9448435738
 20
8.6795429324
 10
328.544200571
 20
7.4156890875
 10
330.0348424066
 20
5.9889588552
 10
331.4120802437
 20
4.4038454902
 10
332.6715782254
 20
2.6653334731
 10
333.8093771819
 20
0.7788924245
 10
334.8218946313
 20
-1.2495396251
 10
335.7059484864
 20
-3.4135805726
 10
336.4587491528
 20
-5.7064255342
 10
337.0779364068
 20
-8.1208552144
 10
337.5615583225
 20
-10.6492762078
 10
337.9080923452
 20
-13.283732409
 10
338.1164505591
 20
-16.0159346704
 10
338.1859770541
 20
-18.8372858973
 10
338.1164505591
 20
-21.7389107066
 10
337.9080923452
 20
-24.7116782412
 10
337.5615583225
 20
-27.7462341086
 10
337.0779364068
 20
-30.8330330806
 10
336.4587491528
 20
-33.9623611472
 10
335.7059484864
 20
-37.1243712575
 10
334.8218946313
 20
-40.3091190597
 10
333.8093771819
 20
-43.5065788729
 10
332.6715782254
 20
-46.7066946344
 10
331.4120802437
 20
-49.8993920679
 10
330.0348424066
 20
-53.0746303929
 10
328.544200571
 20
-56.2224190549
 10
326.9448435738
 20
-59.3328511831
 10
325.2418026951
 20
-62.3961446552
 10
323.4404384872
 20
-65.4026588256
 10
321.5464197013
 20
-68.3429310259
 10
319.5657022137
 20
-71.2077130653
 10
317.504521124
 20
-73.9879910018
 10
315.3693604613
 20
-76.6750147973
 10
313.1669360627
 20
-79.2603355788
 10
310.9041810845
 20
-81.7358140021
 10
308.5882130759
 20
-84.0936666369
 10
306.2263194904
 20
-86.3264652049
 10
303.8259320028
 20
-88.4271939927
 10
301.394602143
 20
-90.3892395829
 10
298.9399808809
 20
-92.2064269742
 10
296.4697903097
 20
-93.8730420126
 10
293.99180323
 20
-95.3838401346
 10
291.5138161503
 20
-96.7340649962
 10
289.043625579
 20
-97.9194712845
 10
286.589004317
 20
-98.9363292779
 10
284.1576744571
 20
-99.781437392
 10
281.7572869695
 20
-100.4521370059
 10
279.395393384
 20
-100.9463227261
 10
277.0794253754
 20
-101.2624298373
 10
274.8166703973
 20
-101.3994727027
 10
272.6142459986
 20
-101.3570170055
 10
270.4790853359
 20
-101.1351972377
 10
268.4179042462
 20
-100.7347083322
 10
266.4371867587
 20
-100.1568140261
 10
264.5431679727
 20
-99.403329369
 10
262.7418037648
 20
-98.4766260431
 10
261.0387628861
 20
-97.3796217159
 10
259.439405889
 20
-96.115767871
 10
257.9487640534
 20
-94.6890376387
 10
256.5715262162
 20
-93.1039242736
 10
255.3120282346
 20
-91.3654122565
 10
254.174229278
 20
-89.478971208
 10
253.1617118286
 20
-87.4505391584
 10
252.2776579735
 20
-85.2864982109
 10
251.5248573072
 20
-82.9936532493
 10
250.9056700532
 20
-80.5792235691
 10
250.4220481374
 20
-78.0508025756
 10
250.0755141147
 20
-75.4163463744
 10
249.8671559008
 20
-72.6841441131
 10
249.7976294058
 20
-69.8627928862
  0
LWPOLYLINE
  5
E3
330
1F
100
AcDbEntity
  8
0
  6
Continuous
 62
     7
370
    25
100
AcDbPolyline
 90
      103
 70
   128
 43
0.0
 10
257.8586461887
 20
-65.2092669505
 10
257.9271795986
 20
-62.6010601906
 10
258.1325164103
 20
-59.9236223189
 10
258.4738821757
 20
-57.1871065829
 10
258.9499782448
 20
-54.4018966013
 10
259.5590002058
 20
-51.5785565553
 10
260.2986378845
 20
-48.7277965876
 10
261.1660858813
 20
-45.8604294567
 10
262.1580514737
 20
-42.9873325148
 10
263.2707756895
 20
-40.1194058843
 10
264.5000333074
 20
-37.26752683
 10
265.8411618321
 20
-34.4425163013
 10
267.2890773
 20
-31.6550857013
 10
268.83828745
 20
-28.9158110328
 10
270.4829101624
 20
-26.2350842295
 10
272.2167116551
 20
-23.6230743769
 10
274.0331130682
 20
-21.0896904495
 10
275.9252247093
 20
-18.6445402494
 10
277.8858697603
 20
-16.2968984692
 10
279.9076093023
 20
-14.0556709522
 10
281.9827752432
 20
-11.9293635168
 10
284.1034953419
 20
-9.9260370914
 10
286.2617254772
 20
-8.053292128
 10
288.4492786238
 20
-6.3182336237
 10
290.6578561331
 20
-4.7274439369
 10
292.8790805781
 20
-3.286954701
 10
295.1045258818
 20
-2.0022324733
 10
297.3257503268
 20
-0.8781505534
 10
299.5343278361
 20
0.0810290744
 10
301.7218809827
 20
0.8716656723
 10
303.880111118
 20
1.4907601828
 10
306.0008312167
 20
1.9359650649
 10
308.0759971576
 20
2.2055932259
 10
310.0977366996
 20
2.2986164982
 10
312.0583817506
 20
2.2146873093
 10
313.9504933917
 20
1.9541227099
 10
315.7668948049
 20
1.5179112146
 10
317.5006962975
 20
0.9077059557
 10
319.14531901
 20
0.1258201183
 10
320.6945291599
 20
-0.8247745842
 10
322.1424446278
 20
-1.9404775686
 10
323.4835731525
 20
-3.2170540621
 10
324.7128307704
 20
-4.6496624809
 10
325.8255549863
 20
-6.2328650778
 10
326.8175205786
 20
-7.9606629251
 10
327.6849685754
 20
-9.8264959172
 10
328.4246062541
 20
-11.8232883983
 10
329.0336282151
 20
-13.9434666553
 10
329.5097242843
 20
-16.1789878159
 10
329.8510900496
 20
-18.5213710286
 10
330.0564268614
 20
-20.9617320638
 10
330.1249602712
 20
-23.490811833
 10
330.0564268614
 20
-26.0990185929
 10
329.8510900496
 20
-28.7764564646
 10
329.5097242843
 20
-31.5129722006
 10
329.0336282151
 20
-34.2981821822
 10
328.4246062541
 20
-37.1215222281
 10
327.6849685754
 20
-39.9722821959
 10
326.8175205786
 20
-42.8396493268
 10
325.8255549863
 20
-45.7127462687
 10
324.7128307704
 20
-48.5806728992
 10
323.4835731525
 20
-51.4325519535
 10
322.1424446278
 20
-54.2575624822
 10
320.6945291599
 20
-57.0449930821
 10
319.14531901
 20
-59.7842677507
 10
317.5006962975
 20
-62.4649945539
 10
315.7668948049
 20
-65.0770044066
 10
313.9504933917
 20
-67.610388334
 10
312.0583817506
 20
-70.0555385341
 10
310.0977366996
 20
-72.4031803143
 10
308.0759971576
 20
-74.6444078313
 10
306.0008312167
 20
-76.7707152667
 10
303.880111118
 20
-78.7740416921
 10
301.7218809827
 20
-80.6467866555
 10
299.5343278361
 20
-82.3818451598
 10
297.3257503268
 20
-83.9726348465
 10
295.1045258818
 20
-85.4131240825
 10
292.8790805781
 20
-86.6978463102
 10
290.6578561331
 20
-87.82192823
 10
288.4492786238
 20
-88.7811078579
 10
286.2617254772
 20
-89.5717444558
 10
284.1034953419
 20
-90.1908389663
 10
281.9827752432
 20
-90.6360438484
 10
279.9076093023
 20
-90.9056720094
 10
277.8858697603
 20
-90.9986952817
 10
275.9252247093
 20
-90.9147660928
 10
274.0331130682
 20
-90.6542014934
 10
272.2167116551
 20
-90.217989998
 10
270.4829101624
 20
-89.6077847392
 10
268.83828745
 20
-88.8258989018
 10
267.2890773
 20
-87.8753041992
 10
265.8411618321
 20
-86.7596012149
 10
264.5000333074
 20
-85.4830247214
 10
263.2707756895
 20
-84.0504163026
 10
262.1580514737
 20
-82.4672137057
 10
261.1660858813
 20
-80.7394158584
 10
260.2986378845
 20
-78.8735828663
 10
259.5590002058
 20
-76.8767903852
 10
258.9499782448
 20
-74.7566121282
 10
258.4738821757
 20
-72.5210909676
 10
258.1325164103
 20
-70.1787077549
 10
257.9271795986
 20
-67.7383467197
 10
257.8586461887
 20
-65.2092669505
  0
ARC
  5
E4
330
1F
100
AcDbEntity
  8
0
  6
Continuous
 62
     7
370
    25
100
AcDbCircle
 10
376.0742131237
 20
-43.7376759239
 30
0.0
 40
20.93179301002532
100
AcDbArc
 50
53.3617422762
 51
59.994880283
  0
LWPOLYLINE
  5
E5
330
1F
100
AcDbEntity
  8
0
  6
Continuous
 62
     7
370
    25
100
AcDbPolyline
 90
        3
 70
   128
 43
0.0
 10
326.2224189315
 20
-134.9593752079
 10
325.8456340083
 20
-134.7924897319
 10
324.046809148
 20
-133.8672528167
  0
ARC
  5
E6
330
1F
100
AcDbEntity
  8
0
  6
Continuous
 62
     7
370
    25
100
AcDbCircle
 10
374.1431281546
 20
-46.3747744699
 30
0.0
 40
24.20584133676371
100
AcDbArc
 50
31.0840841544
 51
44.1686265664
  0
ARC
  5
E7
330
1F
100
AcDbEntity
  8
0
  6
Continuous
 62
     7
370
    25
100
AcDbCircle
 10
335.8247770492
 20
-112.8305459942
 30
0.0
 40
24.12264620686465
100
AcDbArc
 50
254.6618994494
 51
269.2438896543
  0
LWPOLYLINE
  5
E8
330
1F
100
AcDbEntity
  8
0
  6
Continuous
 62
     7
370
    25
100
AcDbPolyline
 90
        3
 70
   128
 43
0.0
 10
421.8711130961
 20
-67.3951984296
 10
421.8791288998
 20
-67.405255543
 10
422.093245427
 20
-67.6797190871
  0
LWPOLYLINE
  5
E9
330
1F
100
AcDbEntity
  8
0
  6
Continuous
 62
     7
370
    25
100
AcDbPolyline
 90
       50
 70
   128
 43
0.0
 10
473.467682804
 20
-95.9991417939
 10
474.0205783337
 20
-96.3344087581
 10
475.4198853144
 20
-97.3412210628
 10
476.7122736429
 20
-98.5125814209
 10
477.8920956416
 20
-99.8433668245
 10
478.9541935899
 20
-101.3277562066
 10
479.8939207978
 20
-102.9592608619
 10
480.7071705816
 20
-104.7307457421
 10
481.3903841668
 20
-106.6344667197
 10
481.9405743956
 20
-108.6620964457
 10
482.3553362635
 20
-110.8047703588
 10
482.6328548217
 20
-113.0531190057
 10
482.7719183483
 20
-115.3973102478
 10
482.7719183483
 20
-117.8270933686
 10
482.6328548217
 20
-120.3318439411
 10
482.3553362635
 20
-122.9006086949
 10
481.9405743956
 20
-125.5221564675
 10
481.3903841668
 20
-128.1850223104
 10
480.7071705816
 20
-130.877564903
 10
479.8939207978
 20
-133.5880079973
 10
478.9541935899
 20
-136.3044985921
 10
477.8920956416
 20
-139.0151601634
 10
476.7122736429
 20
-141.7081390516
 10
475.4198853144
 20
-144.3716592123
 10
474.0205783337
 20
-146.9940769678
 10
472.5204784818
 20
-149.5639182682
 10
470.9261395938
 20
-152.0699516916
 10
469.2445369731
 20
-154.5012196222
 10
467.4830212934
 20
-156.8470846345
 10
465.6492962083
 20
-159.097295651
 10
463.7513814731
 20
-161.2420061902
 10
461.7975734312
 20
-163.2718458465
 10
459.7964173563
 20
-165.177933215
 10
457.7566633292
 20
-166.9519348239
 10
455.6872310061
 20
-168.5860915565
 10
453.5971692824
 20
-170.0732632303
 10
451.4956175621
 20
-171.4069387877
 10
449.391765299
 20
-172.5812931137
 10
447.294811907
 20
-173.5911888849
 10
445.2139271656
 20
-174.4322085537
 10
443.1582100197
 20
-175.100678132
 10
441.1366502603
 20
-175.5936710613
 10
439.1580868718
 20
-175.9090322589
 10
437.2311711535
 20
-176.0453841974
 10
435.3643304993
 20
-176.0021295636
 10
433.56572691
 20
-175.7794569577
 10
431.8432260412
 20
-175.3783435521
 10
430.2043590077
 20
-174.8005375971
 10
428.656292091
 20
-174.0485698254
 10
428.4713385488
 20
-173.9435401499
  0
LWPOLYLINE
  5
EA
330
1F
100
AcDbEntity
  8
0
  6
Continuous
 62
     1
370
    25
100
AcDbPolyline
 90
       55
 70
   128
 43
0.0
 10
388.5654867056
 20
-26.9416036771
 10
389.8466666066
 20
-27.9734712754
 10
391.3373084422
 20
-29.4002015077
 10
392.7145462793
 20
-30.9853148728
 10
393.974044261
 20
-32.7238268899
 10
395.1118432176
 20
-34.6102679384
 10
396.124360667
 20
-36.638699988
 10
397.0084145221
 20
-38.8027409355
 10
397.7612151884
 20
-41.0955858971
 10
398.3804024424
 20
-43.5100155773
 10
398.8640243582
 20
-46.0384365708
 10
399.2105583808
 20
-48.672892772
 10
399.4189165948
 20
-51.4050950333
 10
399.4884430898
 20
-54.2264462602
 10
399.4189165948
 20
-57.1280710695
 10
399.2105583808
 20
-60.1008386041
 10
398.8640243582
 20
-63.1353944715
 10
398.3804024424
 20
-66.2221934435
 10
397.7612151884
 20
-69.3515215101
 10
397.0084145221
 20
-72.5135316204
 10
396.124360667
 20
-75.6982794226
 10
395.1118432176
 20
-78.8957392358
 10
393.974044261
 20
-82.0958549973
 10
392.7145462793
 20
-85.2885524308
 10
391.3373084422
 20
-88.4637907558
 10
389.8466666066
 20
-91.6115794178
 10
388.2473096094
 20
-94.7220115461
 10
386.5442687308
 20
-97.7853050181
 10
384.7429045229
 20
-100.7918191885
 10
382.8488857369
 20
-103.7320913888
 10
380.8681682494
 20
-106.5968734282
 10
378.8069871596
 20
-109.3771513647
 10
376.671826497
 20
-112.0641751602
 10
374.4694020983
 20
-114.6494959418
 10
372.2066471201
 20
-117.124974365
 10
369.8906791115
 20
-119.4828269998
 10
367.5287855261
 20
-121.7156255678
 10
365.1283980385
 20
-123.8163543557
 10
362.6970681786
 20
-125.7783999458
 10
360.2424469166
 20
-127.5955873371
 10
357.7722563453
 20
-129.2622023755
 10
355.2942692656
 20
-130.7730004975
 10
352.8162821859
 20
-132.1232253591
 10
350.3460916146
 20
-133.3086316474
 10
347.8914703526
 20
-134.3254896409
 10
345.4601404927
 20
-135.1705977549
 10
343.0597530051
 20
-135.8412973688
 10
340.6978594196
 20
-136.3354830891
 10
338.3818914111
 20
-136.6515902002
 10
336.1191364329
 20
-136.7886330656
 10
333.9167120342
 20
-136.7461773684
 10
331.7815513716
 20
-136.5243576006
 10
329.7203702818
 20
-136.1238686951
 10
327.7396527943
 20
-135.545974389
 10
326.2224189315
 20
-134.9593752079
  0
LWPOLYLINE
  5
EB
330
1F
100
AcDbEntity
  8
0
  6
Continuous
 62
     1
370
    25
100
AcDbPolyline
 90
       47
 70
   128
 43
0.0
 10
394.8732657132
 20
-33.8774086827
 10
395.4756679848
 20
-34.9195168613
 10
396.4867102945
 20
-36.9449951346
 10
397.3694760366
 20
-39.105884603
 10
398.1211808848
 20
-41.3953879879
 10
398.7394672499
 20
-43.806301203
 10
399.222383206
 20
-46.331039969
 10
399.5684141006
 20
-48.9616580667
 10
399.7764667499
 20
-51.6898815575
 10
399.8458931462
 20
-54.5071224731
 10
399.7764667499
 20
-57.4045213996
 10
399.5684141006
 20
-60.3729573662
 10
399.222383206
 20
-63.403094231
 10
398.7394672499
 20
-66.4853958917
 10
398.1211808848
 20
-69.6101673492
 10
397.3694760366
 20
-72.7675706781
 10
396.4867102945
 20
-75.9476797775
 10
395.4756679848
 20
-79.1404826544
 10
394.3395259262
 20
-82.3359354129
 10
393.0818613325
 20
-85.5239835483
 10
391.706630739
 20
-88.6945984473
 10
390.2181594661
 20
-91.8378002008
 10
388.6211310823
 20
-94.9437032306
 10
386.9205742335
 20
-98.0025330186
 10
385.121833667
 20
-101.004664127
 10
383.2305728654
 20
-103.94065518
 10
381.2527424369
 20
-106.80126407
 10
379.194561676
 20
-109.5774920627
 10
377.0625106605
 20
-112.2606035684
 10
374.8632960078
 20
-114.8421580784
 10
372.6038363863
 20
-117.3140306959
 10
370.2912414427
 20
-119.6684486362
 10
367.9327894108
 20
-121.8979950274
 10
365.5358974775
 20
-123.9956655615
 10
363.10810927
 20
-125.9548513831
 10
360.6570632461
 20
-127.7693938397
 10
358.190470962
 20
-129.4335787763
 10
355.7160933647
 20
-130.9421775981
 10
353.2417157675
 20
-132.2904343402
 10
350.7751234834
 20
-133.4741162362
 10
348.3240774595
 20
-134.4894912823
 10
345.896289252
 20
-135.3333700602
 10
343.4993973187
 20
-136.0030920468
 10
341.1409452868
 20
-136.4965564107
 10
338.8283503432
 20
-136.8122037583
 10
336.5688907217
 20
-136.9490476916
 10
335.5064490132
 20
-136.9510917443
  0
LWPOLYLINE
  5
EC
330
1F
100
AcDbEntity
  8
0
  6
Continuous
 62
     1
370
    25
100
AcDbPolyline
 90
       42
 70
   128
 43
0.0
 10
422.093245427
 20
-67.6797190871
 10
422.9433737032
 20
-68.892648955
 10
423.8850027876
 20
-70.5274541977
 10
424.6998962985
 20
-72.3025240542
 10
425.3844928272
 20
-74.2100953852
 10
425.9357946791
 20
-76.2418286733
 10
426.3513968498
 20
-78.3888369235
 10
426.6294764879
 20
-80.6417343318
 10
426.7688218716
 20
-82.9906677519
 10
426.7688218716
 20
-85.4253666949
 10
426.6294764879
 20
-87.9351848706
 10
426.3513968498
 20
-90.509146195
 10
425.9357946791
 20
-93.1359984976
 10
425.3844928272
 20
-95.8042513553
 10
424.6998962985
 20
-98.5022410138
 10
423.8850027876
 20
-101.2181668913
 10
422.9433737032
 20
-103.9401539334
 10
421.8791288998
 20
-106.6562982407
 10
420.6969177016
 20
-109.3547263818
 10
419.4019136343
 20
-112.0236364581
 10
417.9997775464
 20
-114.6513574163
 10
416.4966418044
 20
-117.2263992375
 10
414.8990786825
 20
-119.737503125
 10
413.2140727037
 20
-122.1736894102
 10
411.4489942982
 20
-124.5243001371
 10
409.6115589734
 20
-126.7790621758
 10
407.7098036066
 20
-128.9281130769
 10
405.7520429806
 20
-130.9620596223
 10
403.7468388326
 20
-132.8720017777
 10
401.7029583656
 20
-134.6495931446
 10
399.6293393458
 20
-136.2870580683
 10
397.5350491078
 20
-137.777233554
 10
395.4292456596
 20
-139.1136099717
 10
393.3211370586
 20
-140.290342341
 10
391.2199413229
 20
-141.3022795571
 10
389.134847165
 20
-142.1450022678
 10
387.074970652
 20
-142.8148235588
 10
385.0493206726
 20
-143.3088119305
 10
383.0667546507
 20
-143.6248138227
 10
381.1359403488
 20
-143.761439162
 10
379.2653236005
 20
-143.7180982416
 10
377.8984617906
 20
-143.566316954
  0
LWPOLYLINE
  5
ED
330
1F
100
AcDbEntity
  8
0
  6
Continuous
 62
     1
370
    25
100
AcDbPolyline
 90
       44
 70
   128
 43
0.0
 10
421.0768847118
 20
-66.3994087023
 10
422.2464834656
 20
-67.7198386838
 10
423.3085814139
 20
-69.204228066
 10
424.2483086217
 20
-70.8357327212
 10
425.0615584055
 20
-72.6072176014
 10
425.7447719908
 20
-74.510938579
 10
426.2949622196
 20
-76.538568305
 10
426.7097240875
 20
-78.6812422181
 10
426.9872426457
 20
-80.929590865
 10
427.1263061723
 20
-83.2737821071
 10
427.1263061723
 20
-85.7035652279
 10
426.9872426457
 20
-88.2083158004
 10
426.7097240875
 20
-90.7770805543
 10
426.2949622196
 20
-93.3986283269
 10
425.7447719908
 20
-96.0614941697
 10
425.0615584055
 20
-98.7540367623
 10
424.2483086217
 20
-101.4644798566
 10
423.3085814139
 20
-104.1809704514
 10
422.2464834656
 20
-106.8916320227
 10
421.0666614669
 20
-109.5846109109
 10
419.7742731383
 20
-112.2481310717
 10
418.3749661576
 20
-114.8705488271
 10
416.8748663058
 20
-117.4403901275
 10
415.2805274178
 20
-119.9464235509
 10
413.5989247971
 20
-122.3776914815
 10
411.8374091174
 20
-124.7235564938
 10
410.0036840323
 20
-126.9737675103
 10
408.105769297
 20
-129.1184780495
 10
406.1519612552
 20
-131.1483177058
 10
404.1508051803
 20
-133.0544050743
 10
402.1110511532
 20
-134.8284066832
 10
400.0416188301
 20
-136.4625634158
 10
397.9515571064
 20
-137.9497350896
 10
395.8500053861
 20
-139.283410647
 10
393.746153123
 20
-140.457764973
 10
391.649199731
 20
-141.4676607442
 10
389.5683149896
 20
-142.308680413
 10
387.5125978437
 20
-142.9771499913
 10
385.4910380843
 20
-143.4701429206
 10
383.5124746958
 20
-143.7855041182
 10
381.5855589775
 20
-143.9218560567
 10
379.7187183233
 20
-143.8786014229
 10
377.920114734
 20
-143.655928817
 10
376.6389506381
 20
-143.3765088326
  0
ENDSEC
  0
SECTION
  2
OBJECTS
  0
DICTIONARY
  5
C
330
0
100
AcDbDictionary
281
     1
  3
ACAD_GROUP
350
D
  3
ACAD_LAYOUT
350
1A
  3
ACAD_MLINESTYLE
350
17
  3
ACAD_PLOTSETTINGS
350
19
  3
ACAD_PLOTSTYLENAME
350
E
  3
ACAD_SCALELIST
350
47
  0
DICTIONARY
  5
D
102
{ACAD_REACTORS
330
C
102
}
330
C
100
AcDbDictionary
281
     1
  0
DICTIONARY
  5
1A
102
{ACAD_REACTORS
330
C
102
}
330
C
100
AcDbDictionary
281
     1
  3
Layout1
350
1E
  3
Layout2
350
26
  3
Model
350
22
  0
DICTIONARY
  5
17
102
{ACAD_REACTORS
330
C
102
}
330
C
100
AcDbDictionary
281
     1
  3
Standard
350
18
  0
DICTIONARY
  5
19
102
{ACAD_REACTORS
330
C
102
}
330
C
100
AcDbDictionary
281
     1
  0
ACDBDICTIONARYWDFLT
  5
E
102
{ACAD_REACTORS
330
C
102
}
330
C
100
AcDbDictionary
281
     1
  3
Normal
350
F
100
AcDbDictionaryWithDefault
340
F
  0
DICTIONARY
  5
47
102
{ACAD_REACTORS
330
C
102
}
330
C
100
AcDbDictionary
281
     1
  3
A0
350
48
  3
A1
350
49
  3
A2
350
4A
  3
A3
350
4B
  3
A4
350
4C
  3
A5
350
4D
  3
A6
350
4E
  3
A7
350
4F
  3
A8
350
50
  3
A9
350
51
  3
B0
350
52
  3
B1
350
53
  3
B2
350
54
  3
B3
350
55
  3
B4
350
56
  3
B5
350
57
  3
B6
350
58
  3
B7
350
59
  3
B8
350
5A
  3
B9
350
5B
  3
C0
350
5C
  3
C1
350
5D
  3
C2
350
5E
  3
C3
350
5F
  3
C4
350
60
  3
C5
350
61
  3
C6
350
62
  3
C7
350
63
  3
C8
350
64
  3
C9
350
65
  3
D0
350
66
  3
D1
350
67
  3
D2
350
68
  0
LAYOUT
  5
1E
102
{ACAD_REACTORS
330
1A
102
}
330
1A
100
AcDbPlotSettings
  1

  2
none_device
  4

  6

 40
0.0
 41
0.0
 42
0.0
 43
0.0
 44
0.0
 45
0.0
 46
0.0
 47
0.0
 48
0.0
 49
0.0
140
0.0
141
0.0
142
1.0
143
1.0
 70
   688
 72
     1
 73
     0
 74
     5
  7

 75
    16
147
1.0
148
0.0
149
0.0
100
AcDbLayout
  1
Layout1
 70
     1
 71
     1
 10
0.0
 20
0.0
 11
420.0
 21
297.0
 12
0.0
 22
0.0
 32
0.0
 14
1.0000000000E+20
 24
1.0000000000E+20
 34
1.0000000000E+20
 15
-1.0000000000E+20
 25
-1.0000000000E+20
 35
-1.0000000000E+20
146
0.0
 13
0.0
 23
0.0
 33
0.0
 16
1.0
 26
0.0
 36
0.0
 17
0.0
 27
1.0
 37
0.0
 76
     0
330
1B
  0
LAYOUT
  5
26
102
{ACAD_REACTORS
330
1A
102
}
330
1A
100
AcDbPlotSettings
  1

  2
none_device
  4

  6

 40
0.0
 41
0.0
 42
0.0
 43
0.0
 44
0.0
 45
0.0
 46
0.0
 47
0.0
 48
0.0
 49
0.0
140
0.0
141
0.0
142
1.0
143
1.0
 70
   688
 72
     1
 73
     0
 74
     5
  7

 75
    16
147
1.0
148
0.0
149
0.0
100
AcDbLayout
  1
Layout2
 70
     1
 71
     2
 10
0.0
 20
0.0
 11
0.0
 21
0.0
 12
0.0
 22
0.0
 32
0.0
 14
0.0
 24
0.0
 34
0.0
 15
0.0
 25
0.0
 35
0.0
146
0.0
 13
0.0
 23
0.0
 33
0.0
 16
1.0
 26
0.0
 36
0.0
 17
0.0
 27
1.0
 37
0.0
 76
     0
330
23
  0
LAYOUT
  5
22
102
{ACAD_REACTORS
330
1A
102
}
330
1A
100
AcDbPlotSettings
  1

  2
none_device
  4
Letter_(8.50_x_11.00_Inches)
  6

 40
6.35
 41
6.35
 42
6.35000508
 43
6.35000508
 44
215.9
 45
279.4
 46
0.0
 47
0.0
 48
0.0
 49
0.0
140
0.0
141
0.0
142
1.0
143
1.0
 70
  1712
 72
     1
 73
     0
 74
     0
  7

 75
     0
147
1.0
148
0.0
149
0.0
100
AcDbLayout
  1
Model
 70
     1
 71
     0
 10
0.0
 20
0.0
 11
279.4
 21
215.9
 12
0.0
 22
0.0
 32
0.0
 14
0.0
 24
0.0
 34
0.0
 15
279.4
 25
215.9
 35
0.0
146
0.0
 13
0.0
 23
0.0
 33
0.0
 16
1.0
 26
0.0
 36
0.0
 17
0.0
 27
1.0
 37
0.0
 76
     0
330
1F
331
29
  0
MLINESTYLE
  5
18
102
{ACAD_REACTORS
330
17
102
}
330
17
100
AcDbMlineStyle
  2
Standard
 70
     0
  3

 62
   256
 51
90.0
 52
90.0
 71
     2
 49
0.5
 62
   256
  6
BYLAYER
 49
-0.5
 62
   256
  6
BYLAYER
  0
ACDBPLACEHOLDER
  5
F
102
{ACAD_REACTORS
330
E
102
}
330
E
  0
SCALE
  5
48
102
{ACAD_REACTORS
330
47
102
}
330
47
100
AcDbScale
 70
     0
300
1:1
140
1.0
141
1.0
290
     1
  0
SCALE
  5
49
102
{ACAD_REACTORS
330
47
102
}
330
47
100
AcDbScale
 70
     0
300
1:2
140
1.0
141
2.0
290
     0
  0
SCALE
  5
4A
102
{ACAD_REACTORS
330
47
102
}
330
47
100
AcDbScale
 70
     0
300
1:4
140
1.0
141
4.0
290
     0
  0
SCALE
  5
4B
102
{ACAD_REACTORS
330
47
102
}
330
47
100
AcDbScale
 70
     0
300
1:5
140
1.0
141
5.0
290
     0
  0
SCALE
  5
4C
102
{ACAD_REACTORS
330
47
102
}
330
47
100
AcDbScale
 70
     0
300
1:8
140
1.0
141
8.0
290
     0
  0
SCALE
  5
4D
102
{ACAD_REACTORS
330
47
102
}
330
47
100
AcDbScale
 70
     0
300
1:10
140
1.0
141
10.0
290
     0
  0
SCALE
  5
4E
102
{ACAD_REACTORS
330
47
102
}
330
47
100
AcDbScale
 70
     0
300
1:16
140
1.0
141
16.0
290
     0
  0
SCALE
  5
4F
102
{ACAD_REACTORS
330
47
102
}
330
47
100
AcDbScale
 70
     0
300
1:20
140
1.0
141
20.0
290
     0
  0
SCALE
  5
50
102
{ACAD_REACTORS
330
47
102
}
330
47
100
AcDbScale
 70
     0
300
1:30
140
1.0
141
30.0
290
     0
  0
SCALE
  5
51
102
{ACAD_REACTORS
330
47
102
}
330
47
100
AcDbScale
 70
     0
300
1:40
140
1.0
141
40.0
290
     0
  0
SCALE
  5
52
102
{ACAD_REACTORS
330
47
102
}
330
47
100
AcDbScale
 70
     0
300
1:50
140
1.0
141
50.0
290
     0
  0
SCALE
  5
53
102
{ACAD_REACTORS
330
47
102
}
330
47
100
AcDbScale
 70
     0
300
1:100
140
1.0
141
100.0
290
     0
  0
SCALE
  5
54
102
{ACAD_REACTORS
330
47
102
}
330
47
100
AcDbScale
 70
     0
300
2:1
140
2.0
141
1.0
290
     0
  0
SCALE
  5
55
102
{ACAD_REACTORS
330
47
102
}
330
47
100
AcDbScale
 70
     0
300
4:1
140
4.0
141
1.0
290
     0
  0
SCALE
  5
56
102
{ACAD_REACTORS
330
47
102
}
330
47
100
AcDbScale
 70
     0
300
8:1
140
8.0
141
1.0
290
     0
  0
SCALE
  5
57
102
{ACAD_REACTORS
330
47
102
}
330
47
100
AcDbScale
 70
     0
300
10:1
140
10.0
141
1.0
290
     0
  0
SCALE
  5
58
102
{ACAD_REACTORS
330
47
102
}
330
47
100
AcDbScale
 70
     0
300
100:1
140
100.0
141
1.0
290
     0
  0
SCALE
  5
59
102
{ACAD_REACTORS
330
47
102
}
330
47
100
AcDbScale
 70
     0
300
1/128" = 1'-0"
140
0.0078125
141
12.0
290
     0
  0
SCALE
  5
5A
102
{ACAD_REACTORS
330
47
102
}
330
47
100
AcDbScale
 70
     0
300
1/64" = 1'-0"
140
0.015625
141
12.0
290
     0
  0
SCALE
  5
5B
102
{ACAD_REACTORS
330
47
102
}
330
47
100
AcDbScale
 70
     0
300
1/32" = 1'-0"
140
0.03125
141
12.0
290
     0
  0
SCALE
  5
5C
102
{ACAD_REACTORS
330
47
102
}
330
47
100
AcDbScale
 70
     0
300
1/16" = 1'-0"
140
0.0625
141
12.0
290
     0
  0
SCALE
  5
5D
102
{ACAD_REACTORS
330
47
102
}
330
47
100
AcDbScale
 70
     0
300
3/32" = 1'-0"
140
0.09375
141
12.0
290
     0
  0
SCALE
  5
5E
102
{ACAD_REACTORS
330
47
102
}
330
47
100
AcDbScale
 70
     0
300
1/8" = 1'-0"
140
0.125
141
12.0
290
     0
  0
SCALE
  5
5F
102
{ACAD_REACTORS
330
47
102
}
330
47
100
AcDbScale
 70
     0
300
3/16" = 1'-0"
140
0.1875
141
12.0
290
     0
  0
SCALE
  5
60
102
{ACAD_REACTORS
330
47
102
}
330
47
100
AcDbScale
 70
     0
300
1/4" = 1'-0"
140
0.25
141
12.0
290
     0
  0
SCALE
  5
61
102
{ACAD_REACTORS
330
47
102
}
330
47
100
AcDbScale
 70
     0
300
3/8" = 1'-0"
140
0.375
141
12.0
290
     0
  0
SCALE
  5
62
102
{ACAD_REACTORS
330
47
102
}
330
47
100
AcDbScale
 70
     0
300
1/2" = 1'-0"
140
0.5
141
12.0
290
     0
  0
SCALE
  5
63
102
{ACAD_REACTORS
330
47
102
}
330
47
100
AcDbScale
 70
     0
300
3/4" = 1'-0"
140
0.75
141
12.0
290
     0
  0
SCALE
  5
64
102
{ACAD_REACTORS
330
47
102
}
330
47
100
AcDbScale
 70
     0
300
1" = 1'-0"
140
1.0
141
12.0
290
     0
  0
SCALE
  5
65
102
{ACAD_REACTORS
330
47
102
}
330
47
100
AcDbScale
 70
     0
300
1-1/2" = 1'-0"
140
1.5
141
12.0
290
     0
  0
SCALE
  5
66
102
{ACAD_REACTORS
330
47
102
}
330
47
100
AcDbScale
 70
     0
300
3" = 1'-0"
140
3.0
141
12.0
290
     0
  0
SCALE
  5
67
102
{ACAD_REACTORS
330
47
102
}
330
47
100
AcDbScale
 70
     0
300
6" = 1'-0"
140
6.0
141
12.0
290
     0
  0
SCALE
  5
68
102
{ACAD_REACTORS
330
47
102
}
330
47
100
AcDbScale
 70
     0
300
1'-0" = 1'-0"
140
12.0
141
12.0
290
     0
  0
ENDSEC
  0
EOF
